ISO-10303-21;
HEADER;
FILE_DESCRIPTION (( 'STEP AP203' ),
    '1' );
FILE_NAME ('Entry thread seal - Metric and NPT.20 Metric.STEP',
    '2013-02-07T10:14:32',
    ( '' ),
    ( '' ),
    'SwSTEP 2.0',
    'SolidWorks 2012',
    '' );
FILE_SCHEMA (( 'CONFIG_CONTROL_DESIGN' ));
ENDSEC;

DATA;
#1 = EDGE_CURVE ( 'NONE', #127, #124, #163, .T. ) ;
#2 = EDGE_CURVE ( 'NONE', #128, #124, #123, .T. ) ;
#3 = EDGE_CURVE ( 'NONE', #122, #121, #126, .T. ) ;
#4 = EDGE_CURVE ( 'NONE', #121, #122, #164, .T. ) ;
#5 = EDGE_CURVE ( 'NONE', #124, #127, #167, .T. ) ;
#6 = EDGE_CURVE ( 'NONE', #128, #125, #168, .T. ) ;
#7 = EDGE_CURVE ( 'NONE', #120, #129, #166, .T. ) ;
#8 = EDGE_CURVE ( 'NONE', #125, #127, #169, .T. ) ;
#9 = EDGE_CURVE ( 'NONE', #129, #121, #171, .T. ) ;
#10 = EDGE_CURVE ( 'NONE', #120, #122, #173, .T. ) ;
#11 = EDGE_CURVE ( 'NONE', #129, #120, #170, .T. ) ;
#12 = EDGE_CURVE ( 'NONE', #125, #128, #177, .T. ) ;
#13 = AXIS2_PLACEMENT_3D ( 'NONE', #34, #97, #37 ) ;
#14 = AXIS2_PLACEMENT_3D ( 'NONE', #82, #83, #36 ) ;
#15 = AXIS2_PLACEMENT_3D ( 'NONE', #57, #58, #59 ) ;
#16 = AXIS2_PLACEMENT_3D ( 'NONE', #56, #41, #42 ) ;
#17 = AXIS2_PLACEMENT_3D ( 'NONE', #43, #44, #86 ) ;
#18 = AXIS2_PLACEMENT_3D ( 'NONE', #52, #53, #54 ) ;
#19 = AXIS2_PLACEMENT_3D ( 'NONE', #47, #48, #49 ) ;
#20 = AXIS2_PLACEMENT_3D ( 'NONE', #84, #85, #80 ) ;
#21 = AXIS2_PLACEMENT_3D ( 'NONE', #45, #50, #46 ) ;
#22 = AXIS2_PLACEMENT_3D ( 'NONE', #71, #81, #55 ) ;
#23 = AXIS2_PLACEMENT_3D ( 'NONE', #70, #68, #69 ) ;
#24 = ADVANCED_FACE ( 'NONE', ( #175 ), #181, .F. ) ;
#25 = ADVANCED_FACE ( 'NONE', ( #179 ), #183, .T. ) ;
#26 = ADVANCED_FACE ( 'NONE', ( #178, #184 ), #76, .F. ) ;
#27 = ADVANCED_FACE ( 'NONE', ( #180 ), #186, .F. ) ;
#28 = ADVANCED_FACE ( 'NONE', ( #185, #187 ), #78, .F. ) ;
#29 = ADVANCED_FACE ( 'NONE', ( #182 ), #188, .T. ) ;
#30 = PRODUCT_DEFINITION_SHAPE ( 'NONE', 'NONE',  #229 ) ;
#31 = DESIGN_CONTEXT ( 'detailed design', #109, 'design' ) ;
#32 = DIRECTION ( 'NONE',  ( -1.000000000000000000, -0.0000000000000000000, -0.0000000000000000000 ) ) ;
#33 = DIRECTION ( 'NONE',  ( -1.000000000000000000, -0.0000000000000000000, -0.0000000000000000000 ) ) ;
#34 = CARTESIAN_POINT ( 'NONE',  ( -1.000000000000000900, 0.0000000000000000000, 0.0000000000000000000 ) ) ;
#35 = CARTESIAN_POINT ( 'NONE',  ( -39.90653472252495200, 1.224646799147353300E-015, -10.00000000000000000 ) ) ;
#36 = DIRECTION ( 'NONE',  ( 0.0000000000000000000, 0.0000000000000000000, 1.000000000000000000 ) ) ;
#37 = DIRECTION ( 'NONE',  ( 0.0000000000000000000, 0.0000000000000000000, 1.000000000000000000 ) ) ;
#38 = DIRECTION ( 'NONE',  ( -1.000000000000000000, -0.0000000000000000000, -0.0000000000000000000 ) ) ;
#39 = DIRECTION ( 'NONE',  ( -1.000000000000000000, -0.0000000000000000000, -0.0000000000000000000 ) ) ;
#40 = CARTESIAN_POINT ( 'NONE',  ( -39.90653472252495200, 1.714505518806294400E-015, -13.99999999999999800 ) ) ;
#41 = DIRECTION ( 'NONE',  ( -1.000000000000000000, -0.0000000000000000000, -0.0000000000000000000 ) ) ;
#42 = DIRECTION ( 'NONE',  ( 0.0000000000000000000, 0.0000000000000000000, 1.000000000000000000 ) ) ;
#43 = CARTESIAN_POINT ( 'NONE',  ( 1.000000000000000900, 0.0000000000000000000, 0.0000000000000000000 ) ) ;
#44 = DIRECTION ( 'NONE',  ( -1.000000000000000000, -0.0000000000000000000, -0.0000000000000000000 ) ) ;
#45 = CARTESIAN_POINT ( 'NONE',  ( -39.90653472252495200, 0.0000000000000000000, 0.0000000000000000000 ) ) ;
#46 = DIRECTION ( 'NONE',  ( 0.0000000000000000000, 0.0000000000000000000, 1.000000000000000000 ) ) ;
#47 = CARTESIAN_POINT ( 'NONE',  ( 1.000000000000000900, 0.0000000000000000000, 0.0000000000000000000 ) ) ;
#48 = DIRECTION ( 'NONE',  ( -1.000000000000000000, -0.0000000000000000000, -0.0000000000000000000 ) ) ;
#49 = DIRECTION ( 'NONE',  ( 0.0000000000000000000, 0.0000000000000000000, 1.000000000000000000 ) ) ;
#50 = DIRECTION ( 'NONE',  ( -1.000000000000000000, -0.0000000000000000000, -0.0000000000000000000 ) ) ;
#51 = CARTESIAN_POINT ( 'NONE',  ( -39.90653472252495200, 0.0000000000000000000, 13.99999999999999800 ) ) ;
#52 = CARTESIAN_POINT ( 'NONE',  ( 1.000000000000000900, 0.0000000000000000000, 0.0000000000000000000 ) ) ;
#53 = DIRECTION ( 'NONE',  ( -1.000000000000000000, -0.0000000000000000000, -0.0000000000000000000 ) ) ;
#54 = DIRECTION ( 'NONE',  ( 0.0000000000000000000, 0.0000000000000000000, 1.000000000000000000 ) ) ;
#55 = DIRECTION ( 'NONE',  ( 0.0000000000000000000, 0.0000000000000000000, 1.000000000000000000 ) ) ;
#56 = CARTESIAN_POINT ( 'NONE',  ( -1.000000000000000900, 0.0000000000000000000, 0.0000000000000000000 ) ) ;
#57 = CARTESIAN_POINT ( 'NONE',  ( -1.000000000000000900, 0.0000000000000000000, 0.0000000000000000000 ) ) ;
#58 = DIRECTION ( 'NONE',  ( -1.000000000000000000, -0.0000000000000000000, -0.0000000000000000000 ) ) ;
#59 = DIRECTION ( 'NONE',  ( 0.0000000000000000000, 0.0000000000000000000, 1.000000000000000000 ) ) ;
#60 = DIRECTION ( 'NONE',  ( -1.000000000000000000, 0.0000000000000000000, -0.0000000000000000000 ) ) ;
#61 = DIRECTION ( 'NONE',  ( -0.0000000000000000000, 0.0000000000000000000, 1.000000000000000000 ) ) ;
#62 = DIRECTION ( 'NONE',  ( -1.000000000000000000, -0.0000000000000000000, -0.0000000000000000000 ) ) ;
#63 = CARTESIAN_POINT ( 'NONE',  ( -39.90653472252495200, 0.0000000000000000000, 0.0000000000000000000 ) ) ;
#64 = CARTESIAN_POINT ( 'NONE',  ( -1.000000000000000900, 0.0000000000000000000, 10.00000000000000000 ) ) ;
#65 = CARTESIAN_POINT ( 'NONE',  ( 1.000000000000000900, 0.0000000000000000000, 13.99999999999999800 ) ) ;
#66 = CARTESIAN_POINT ( 'NONE',  ( 1.000000000000000900, 1.714505518806294400E-015, -13.99999999999999800 ) ) ;
#67 = CARTESIAN_POINT ( 'NONE',  ( -1.000000000000000900, 0.0000000000000000000, 13.99999999999999800 ) ) ;
#68 = DIRECTION ( 'NONE',  ( 1.000000000000000000, 0.0000000000000000000, 0.0000000000000000000 ) ) ;
#69 = DIRECTION ( 'NONE',  ( 0.0000000000000000000, 0.0000000000000000000, -1.000000000000000000 ) ) ;
#70 = CARTESIAN_POINT ( 'NONE',  ( -1.000000000000001600, 13.99999999999999800, 0.0000000000000000000 ) ) ;
#71 = CARTESIAN_POINT ( 'NONE',  ( -39.90653472252495200, 0.0000000000000000000, 0.0000000000000000000 ) ) ;
#72 = CARTESIAN_POINT ( 'NONE',  ( 0.9999999999999985600, 10.00000000000000000, 0.0000000000000000000 ) ) ;
#73 = DIRECTION ( 'NONE',  ( -1.000000000000000000, -0.0000000000000000000, -0.0000000000000000000 ) ) ;
#74 = CARTESIAN_POINT ( 'NONE',  ( -39.90653472252495200, 0.0000000000000000000, 0.0000000000000000000 ) ) ;
#75 = CARTESIAN_POINT ( 'NONE',  ( 1.000000000000000900, 0.0000000000000000000, 10.00000000000000000 ) ) ;
#76 = PLANE ( 'NONE',  #23 ) ;
#77 = DIRECTION ( 'NONE',  ( 0.0000000000000000000, 0.0000000000000000000, 1.000000000000000000 ) ) ;
#78 = PLANE ( 'NONE',  #246 ) ;
#79 = DIRECTION ( 'NONE',  ( 0.0000000000000000000, 0.0000000000000000000, 1.000000000000000000 ) ) ;
#80 = DIRECTION ( 'NONE',  ( 0.0000000000000000000, 0.0000000000000000000, 1.000000000000000000 ) ) ;
#81 = DIRECTION ( 'NONE',  ( -1.000000000000000000, -0.0000000000000000000, -0.0000000000000000000 ) ) ;
#82 = CARTESIAN_POINT ( 'NONE',  ( -1.000000000000000900, 0.0000000000000000000, 0.0000000000000000000 ) ) ;
#83 = DIRECTION ( 'NONE',  ( -1.000000000000000000, -0.0000000000000000000, -0.0000000000000000000 ) ) ;
#84 = CARTESIAN_POINT ( 'NONE',  ( 1.000000000000000900, 0.0000000000000000000, 0.0000000000000000000 ) ) ;
#85 = DIRECTION ( 'NONE',  ( -1.000000000000000000, -0.0000000000000000000, -0.0000000000000000000 ) ) ;
#86 = DIRECTION ( 'NONE',  ( 0.0000000000000000000, 0.0000000000000000000, 1.000000000000000000 ) ) ;
#87 = CARTESIAN_POINT ( 'NONE',  ( -39.90653472252495200, 0.0000000000000000000, 10.00000000000000000 ) ) ;
#88 = DATE_TIME_ROLE ( 'classification_date' ) ;
#89 = APPROVAL_STATUS ( 'not_yet_approved' ) ;
#90 = APPROVAL_ROLE ( '' ) ;
#91 = PERSON_AND_ORGANIZATION_ROLE ( 'design_supplier' ) ;
#92 = SECURITY_CLASSIFICATION_LEVEL ( 'unclassified' ) ;
#93 = PERSON_AND_ORGANIZATION_ROLE ( 'classification_officer' ) ;
#94 = APPROVAL_STATUS ( 'not_yet_approved' ) ;
#95 = APPROVAL_ROLE ( '' ) ;
#96 = PERSON_AND_ORGANIZATION_ROLE ( 'creator' ) ;
#97 = DIRECTION ( 'NONE',  ( -1.000000000000000000, -0.0000000000000000000, -0.0000000000000000000 ) ) ;
#98 = CARTESIAN_POINT ( 'NONE',  ( 0.0000000000000000000, 0.0000000000000000000, 0.0000000000000000000 ) ) ;
#99 = DIRECTION ( 'NONE',  ( 0.0000000000000000000, 0.0000000000000000000, 1.000000000000000000 ) ) ;
#100 = CARTESIAN_POINT ( 'NONE',  ( -1.000000000000000900, 1.714505518806294400E-015, -13.99999999999999800 ) ) ;
#101 =( LENGTH_UNIT ( ) NAMED_UNIT ( * ) SI_UNIT ( .MILLI., .METRE. ) );
#102 =( NAMED_UNIT ( * ) PLANE_ANGLE_UNIT ( ) SI_UNIT ( $, .RADIAN. ) );
#103 =( NAMED_UNIT ( * ) SI_UNIT ( $, .STERADIAN. ) SOLID_ANGLE_UNIT ( ) );
#104 = APPLICATION_PROTOCOL_DEFINITION ( 'international standard', 'config_control_design', 1994, #105 ) ;
#105 = APPLICATION_CONTEXT ( 'configuration controlled 3d designs of mechanical parts and assemblies' ) ;
#106 = DIRECTION ( 'NONE',  ( 1.000000000000000000, 0.0000000000000000000, 0.0000000000000000000 ) ) ;
#107 = MECHANICAL_CONTEXT ( 'NONE', #105, 'mechanical' ) ;
#108 = PERSON_AND_ORGANIZATION_ROLE ( 'design_owner' ) ;
#109 = APPLICATION_CONTEXT ( 'configuration controlled 3d designs of mechanical parts and assemblies' ) ;
#110 = APPLICATION_PROTOCOL_DEFINITION ( 'international standard', 'config_control_design', 1994, #109 ) ;
#111 = APPROVAL_STATUS ( 'not_yet_approved' ) ;
#112 = APPROVAL_ROLE ( '' ) ;
#113 = PERSON_AND_ORGANIZATION_ROLE ( 'creator' ) ;
#114 = DATE_TIME_ROLE ( 'creation_date' ) ;
#115 = CARTESIAN_POINT ( 'NONE',  ( 1.000000000000000900, 1.224646799147353300E-015, -10.00000000000000000 ) ) ;
#116 = CARTESIAN_POINT ( 'NONE',  ( -1.000000000000000900, 1.224646799147353300E-015, -10.00000000000000000 ) ) ;
#117 = ADVANCED_BREP_SHAPE_REPRESENTATION ( 'Entry thread seal - Metric and NPT.20 Metric', ( #119, #227 ), #248 ) ;
#118 = UNCERTAINTY_MEASURE_WITH_UNIT (LENGTH_MEASURE( 1.000000000000000100E-005 ), #101, 'distance_accuracy_value', 'NONE');
#119 = MANIFOLD_SOLID_BREP ( 'Revolve1', #154 ) ;
#120 = VERTEX_POINT ( 'NONE', #66 ) ;
#121 = VERTEX_POINT ( 'NONE', #67 ) ;
#122 = VERTEX_POINT ( 'NONE', #100 ) ;
#123 = LINE ( 'NONE', #35, #165 ) ;
#124 = VERTEX_POINT ( 'NONE', #116 ) ;
#125 = VERTEX_POINT ( 'NONE', #75 ) ;
#126 = CIRCLE ( 'NONE', #14, 13.99999999999999800 ) ;
#127 = VERTEX_POINT ( 'NONE', #64 ) ;
#128 = VERTEX_POINT ( 'NONE', #115 ) ;
#129 = VERTEX_POINT ( 'NONE', #65 ) ;
#130 = ORIENTED_EDGE ( 'NONE', *, *, #2, .T. ) ;
#131 = ORIENTED_EDGE ( 'NONE', *, *, #12, .F. ) ;
#132 = ORIENTED_EDGE ( 'NONE', *, *, #6, .F. ) ;
#133 = ORIENTED_EDGE ( 'NONE', *, *, #5, .T. ) ;
#134 = ORIENTED_EDGE ( 'NONE', *, *, #8, .F. ) ;
#135 = ORIENTED_EDGE ( 'NONE', *, *, #11, .T. ) ;
#136 = ORIENTED_EDGE ( 'NONE', *, *, #10, .T. ) ;
#137 = ORIENTED_EDGE ( 'NONE', *, *, #4, .F. ) ;
#138 = ORIENTED_EDGE ( 'NONE', *, *, #9, .F. ) ;
#139 = ORIENTED_EDGE ( 'NONE', *, *, #10, .F. ) ;
#140 = ORIENTED_EDGE ( 'NONE', *, *, #7, .T. ) ;
#141 = ORIENTED_EDGE ( 'NONE', *, *, #9, .T. ) ;
#142 = ORIENTED_EDGE ( 'NONE', *, *, #3, .F. ) ;
#143 = ORIENTED_EDGE ( 'NONE', *, *, #1, .F. ) ;
#144 = ORIENTED_EDGE ( 'NONE', *, *, #5, .F. ) ;
#145 = ORIENTED_EDGE ( 'NONE', *, *, #4, .T. ) ;
#146 = ORIENTED_EDGE ( 'NONE', *, *, #3, .T. ) ;
#147 = ORIENTED_EDGE ( 'NONE', *, *, #2, .F. ) ;
#148 = ORIENTED_EDGE ( 'NONE', *, *, #8, .T. ) ;
#149 = ORIENTED_EDGE ( 'NONE', *, *, #1, .T. ) ;
#150 = ORIENTED_EDGE ( 'NONE', *, *, #11, .F. ) ;
#151 = ORIENTED_EDGE ( 'NONE', *, *, #7, .F. ) ;
#152 = ORIENTED_EDGE ( 'NONE', *, *, #12, .T. ) ;
#153 = ORIENTED_EDGE ( 'NONE', *, *, #6, .T. ) ;
#154 = CLOSED_SHELL ( 'NONE', ( #24, #25, #29, #26, #27, #28 ) ) ;
#155 = EDGE_LOOP ( 'NONE', ( #132, #130, #133, #134 ) ) ;
#156 = EDGE_LOOP ( 'NONE', ( #135, #136, #137, #138 ) ) ;
#157 = EDGE_LOOP ( 'NONE', ( #147, #131, #148, #149 ) ) ;
#158 = EDGE_LOOP ( 'NONE', ( #152, #153 ) ) ;
#159 = EDGE_LOOP ( 'NONE', ( #139, #140, #141, #142 ) ) ;
#160 = EDGE_LOOP ( 'NONE', ( #150, #151 ) ) ;
#161 = EDGE_LOOP ( 'NONE', ( #143, #144 ) ) ;
#162 = EDGE_LOOP ( 'NONE', ( #145, #146 ) ) ;
#163 = CIRCLE ( 'NONE', #13, 10.00000000000000000 ) ;
#164 = CIRCLE ( 'NONE', #15, 13.99999999999999800 ) ;
#165 = VECTOR ( 'NONE', #33, 1000.000000000000000 ) ;
#166 = CIRCLE ( 'NONE', #18, 13.99999999999999800 ) ;
#167 = CIRCLE ( 'NONE', #16, 10.00000000000000000 ) ;
#168 = CIRCLE ( 'NONE', #17, 10.00000000000000000 ) ;
#169 = LINE ( 'NONE', #87, #172 ) ;
#170 = CIRCLE ( 'NONE', #19, 13.99999999999999800 ) ;
#171 = LINE ( 'NONE', #51, #174 ) ;
#172 = VECTOR ( 'NONE', #32, 1000.000000000000000 ) ;
#173 = LINE ( 'NONE', #40, #176 ) ;
#174 = VECTOR ( 'NONE', #39, 1000.000000000000000 ) ;
#175 = FACE_OUTER_BOUND ( 'NONE', #155, .T. ) ;
#176 = VECTOR ( 'NONE', #38, 1000.000000000000000 ) ;
#177 = CIRCLE ( 'NONE', #20, 10.00000000000000000 ) ;
#178 = FACE_BOUND ( 'NONE', #161, .T. ) ;
#179 = FACE_OUTER_BOUND ( 'NONE', #156, .T. ) ;
#180 = FACE_OUTER_BOUND ( 'NONE', #157, .T. ) ;
#181 = CYLINDRICAL_SURFACE ( 'NONE', #21, 10.00000000000000000 ) ;
#182 = FACE_OUTER_BOUND ( 'NONE', #159, .T. ) ;
#183 = CYLINDRICAL_SURFACE ( 'NONE', #22, 13.99999999999999800 ) ;
#184 = FACE_OUTER_BOUND ( 'NONE', #162, .T. ) ;
#185 = FACE_OUTER_BOUND ( 'NONE', #160, .T. ) ;
#186 = CYLINDRICAL_SURFACE ( 'NONE', #247, 10.00000000000000000 ) ;
#187 = FACE_BOUND ( 'NONE', #158, .T. ) ;
#188 = CYLINDRICAL_SURFACE ( 'NONE', #249, 13.99999999999999800 ) ;
#189 = SHAPE_DEFINITION_REPRESENTATION ( #30, #117 ) ;
#190 = ORGANIZATION ( 'UNSPECIFIED', 'UNSPECIFIED', '' ) ;
#191 = PERSON_AND_ORGANIZATION ( #226, #190 ) ;
#192 = PERSON_AND_ORGANIZATION ( #226, #190 ) ;
#193 = APPROVAL_PERSON_ORGANIZATION ( #192, #230, #112 ) ;
#194 = COORDINATED_UNIVERSAL_TIME_OFFSET ( 0, 0, .AHEAD. ) ;
#195 = LOCAL_TIME ( 10, 14, 32.00000000000000000, #194 ) ;
#196 = CALENDAR_DATE ( 2013, 7, 2 ) ;
#197 = DATE_AND_TIME ( #196, #195 ) ;
#198 = APPROVAL_DATE_TIME ( #197, #230 ) ;
#199 = PERSON_AND_ORGANIZATION ( #226, #190 ) ;
#200 = COORDINATED_UNIVERSAL_TIME_OFFSET ( 0, 0, .AHEAD. ) ;
#201 = LOCAL_TIME ( 10, 14, 32.00000000000000000, #200 ) ;
#202 = CALENDAR_DATE ( 2013, 7, 2 ) ;
#203 = DATE_AND_TIME ( #202, #201 ) ;
#204 = PERSON_AND_ORGANIZATION ( #226, #190 ) ;
#205 = APPROVAL_PERSON_ORGANIZATION ( #204, #235, #95 ) ;
#206 = COORDINATED_UNIVERSAL_TIME_OFFSET ( 0, 0, .AHEAD. ) ;
#207 = LOCAL_TIME ( 10, 14, 32.00000000000000000, #206 ) ;
#208 = CALENDAR_DATE ( 2013, 7, 2 ) ;
#209 = DATE_AND_TIME ( #208, #207 ) ;
#210 = APPROVAL_DATE_TIME ( #209, #235 ) ;
#211 = PERSON_AND_ORGANIZATION ( #226, #190 ) ;
#212 = PERSON_AND_ORGANIZATION ( #226, #190 ) ;
#213 = PERSON_AND_ORGANIZATION ( #226, #190 ) ;
#214 = COORDINATED_UNIVERSAL_TIME_OFFSET ( 0, 0, .AHEAD. ) ;
#215 = LOCAL_TIME ( 10, 14, 32.00000000000000000, #214 ) ;
#216 = CALENDAR_DATE ( 2013, 7, 2 ) ;
#217 = DATE_AND_TIME ( #216, #215 ) ;
#218 = PERSON_AND_ORGANIZATION ( #226, #190 ) ;
#219 = APPROVAL_PERSON_ORGANIZATION ( #218, #242, #90 ) ;
#220 = COORDINATED_UNIVERSAL_TIME_OFFSET ( 0, 0, .AHEAD. ) ;
#221 = LOCAL_TIME ( 10, 14, 32.00000000000000000, #220 ) ;
#222 = CALENDAR_DATE ( 2013, 7, 2 ) ;
#223 = DATE_AND_TIME ( #222, #221 ) ;
#224 = APPROVAL_DATE_TIME ( #223, #242 ) ;
#225 = PRODUCT ( 'Entry thread seal - Metric and NPT.20 Metric', 'Entry thread seal - Metric and NPT.20 Metric', '', ( #107 ) ) ;
#226 = PERSON ( 'UNSPECIFIED', 'UNSPECIFIED', 'UNSPECIFIED', ('UNSPECIFIED'), ('UNSPECIFIED'), ('UNSPECIFIED') ) ;
#227 = AXIS2_PLACEMENT_3D ( 'NONE', #98, #99, #106 ) ;
#228 = CC_DESIGN_PERSON_AND_ORGANIZATION_ASSIGNMENT ( #191, #108, ( #225 ) ) ;
#229 = PRODUCT_DEFINITION ( 'UNKNOWN', '', #234, #31 ) ;
#230 = APPROVAL ( #111, 'UNSPECIFIED' ) ;
#231 = CC_DESIGN_APPROVAL ( #230, ( #229 ) ) ;
#232 = CC_DESIGN_PERSON_AND_ORGANIZATION_ASSIGNMENT ( #199, #113, ( #229 ) ) ;
#233 = CC_DESIGN_DATE_AND_TIME_ASSIGNMENT ( #203, #114, ( #229 ) ) ;
#234 = PRODUCT_DEFINITION_FORMATION_WITH_SPECIFIED_SOURCE ( 'ANY', '', #225, .NOT_KNOWN. ) ;
#235 = APPROVAL ( #94, 'UNSPECIFIED' ) ;
#236 = CC_DESIGN_APPROVAL ( #235, ( #234 ) ) ;
#237 = CC_DESIGN_PERSON_AND_ORGANIZATION_ASSIGNMENT ( #211, #96, ( #234 ) ) ;
#238 = CC_DESIGN_PERSON_AND_ORGANIZATION_ASSIGNMENT ( #212, #91, ( #234 ) ) ;
#239 = SECURITY_CLASSIFICATION ( '', '', #92 ) ;
#240 = CC_DESIGN_PERSON_AND_ORGANIZATION_ASSIGNMENT ( #213, #93, ( #239 ) ) ;
#241 = CC_DESIGN_DATE_AND_TIME_ASSIGNMENT ( #217, #88, ( #239 ) ) ;
#242 = APPROVAL ( #89, 'UNSPECIFIED' ) ;
#243 = CC_DESIGN_APPROVAL ( #242, ( #239 ) ) ;
#244 = CC_DESIGN_SECURITY_CLASSIFICATION ( #239, ( #234 ) ) ;
#245 = PRODUCT_RELATED_PRODUCT_CATEGORY ( 'detail', '', ( #225 ) ) ;
#246 = AXIS2_PLACEMENT_3D ( 'NONE', #72, #60, #61 ) ;
#247 = AXIS2_PLACEMENT_3D ( 'NONE', #74, #73, #77 ) ;
#248 =( GEOMETRIC_REPRESENTATION_CONTEXT ( 3 ) GLOBAL_UNCERTAINTY_ASSIGNED_CONTEXT ( ( #118 ) ) GLOBAL_UNIT_ASSIGNED_CONTEXT ( ( #101, #102, #103 ) ) REPRESENTATION_CONTEXT ( 'NONE', 'WORKASPACE' ) );
#249 = AXIS2_PLACEMENT_3D ( 'NONE', #63, #62, #79 ) ;
ENDSEC;
END-ISO-10303-21;
